ISO-10303-21;
HEADER;
FILE_DESCRIPTION (( 'STEP AP203' ),
    '1' );
FILE_NAME ('QB-CTZQWP-38.1-894-M.STEP',
    '2020-12-24T01:52:27',
    ( '' ),
    ( '' ),
    'SwSTEP 2.0',
    'SolidWorks 2020',
    '' );
FILE_SCHEMA (( 'CONFIG_CONTROL_DESIGN' ));
ENDSEC;

DATA;
#1 = APPROVAL_PERSON_ORGANIZATION ( #132, #174, #38 ) ;
#2 = ORIENTED_EDGE ( 'NONE', *, *, #69, .F. ) ;
#3 = LOCAL_TIME ( 9, 52, 27.00000000000000000, #102 ) ;
#4 = FACE_OUTER_BOUND ( 'NONE', #68, .T. ) ;
#5 = APPROVAL ( #51, 'UNSPECIFIED' ) ;
#6 = DIRECTION ( 'NONE',  ( -1.000000000000000000, 0.000000000000000000, -0.000000000000000000 ) ) ;
#7 = CIRCLE ( 'NONE', #106, 25.39999999999999858 ) ;
#8 = DIRECTION ( 'NONE',  ( -1.000000000000000000, -0.000000000000000000, -0.000000000000000000 ) ) ;
#9 = APPROVAL_STATUS ( 'not_yet_approved' ) ;
#10 = PERSON_AND_ORGANIZATION ( #52, #107 ) ;
#11 = COORDINATED_UNIVERSAL_TIME_OFFSET ( 8, 0, .AHEAD. ) ;
#12 = CC_DESIGN_PERSON_AND_ORGANIZATION_ASSIGNMENT ( #46, #49, ( #41 ) ) ;
#13 = AXIS2_PLACEMENT_3D ( 'NONE', #146, #18, #87 ) ;
#14 = ORIENTED_EDGE ( 'NONE', *, *, #166, .F. ) ;
#15 = CYLINDRICAL_SURFACE ( 'NONE', #24, 25.39999999999999858 ) ;
#16 = APPLICATION_CONTEXT ( 'configuration controlled 3d designs of mechanical parts and assemblies' ) ;
#17 =( NAMED_UNIT ( * ) PLANE_ANGLE_UNIT ( ) SI_UNIT ( $, .RADIAN. ) );
#18 = DIRECTION ( 'NONE',  ( -1.000000000000000000, -0.000000000000000000, -0.000000000000000000 ) ) ;
#19 =( GEOMETRIC_REPRESENTATION_CONTEXT ( 3 ) GLOBAL_UNCERTAINTY_ASSIGNED_CONTEXT ( ( #78 ) ) GLOBAL_UNIT_ASSIGNED_CONTEXT ( ( #70, #17, #168 ) ) REPRESENTATION_CONTEXT ( 'NONE', 'WORKASPACE' ) );
#20 = DIRECTION ( 'NONE',  ( -1.000000000000000000, -0.000000000000000000, -0.000000000000000000 ) ) ;
#21 = CARTESIAN_POINT ( 'NONE',  ( 0.000000000000000000, 0.000000000000000000, 0.000000000000000000 ) ) ;
#22 = DATE_TIME_ROLE ( 'classification_date' ) ;
#23 = DATE_TIME_ROLE ( 'creation_date' ) ;
#24 = AXIS2_PLACEMENT_3D ( 'NONE', #126, #53, #111 ) ;
#25 = LOCAL_TIME ( 9, 52, 27.00000000000000000, #36 ) ;
#26 = DATE_AND_TIME ( #47, #88 ) ;
#27 = ORIENTED_EDGE ( 'NONE', *, *, #109, .T. ) ;
#28 = ORIENTED_EDGE ( 'NONE', *, *, #101, .T. ) ;
#29 = CC_DESIGN_PERSON_AND_ORGANIZATION_ASSIGNMENT ( #100, #160, ( #67 ) ) ;
#30 = DIRECTION ( 'NONE',  ( 0.000000000000000000, 0.000000000000000000, -1.000000000000000000 ) ) ;
#31 = CIRCLE ( 'NONE', #145, 25.39999999999999858 ) ;
#32 = CC_DESIGN_SECURITY_CLASSIFICATION ( #159, ( #41 ) ) ;
#33 = DIRECTION ( 'NONE',  ( 0.000000000000000000, 0.000000000000000000, 1.000000000000000000 ) ) ;
#34 = SHAPE_DEFINITION_REPRESENTATION ( #165, #91 ) ;
#35 = CC_DESIGN_APPROVAL ( #123, ( #41 ) ) ;
#36 = COORDINATED_UNIVERSAL_TIME_OFFSET ( 8, 0, .AHEAD. ) ;
#37 = CALENDAR_DATE ( 2020, 24, 12 ) ;
#38 = APPROVAL_ROLE ( '' ) ;
#39 = ORIENTED_EDGE ( 'NONE', *, *, #152, .T. ) ;
#40 = PRODUCT_RELATED_PRODUCT_CATEGORY ( 'detail', '', ( #65 ) ) ;
#41 = PRODUCT_DEFINITION_FORMATION_WITH_SPECIFIED_SOURCE ( 'ANY', '', #65, .NOT_KNOWN. ) ;
#42 = DIRECTION ( 'NONE',  ( -0.000000000000000000, 0.000000000000000000, 1.000000000000000000 ) ) ;
#43 = CARTESIAN_POINT ( 'NONE',  ( -3.000000000000000000, 0.000000000000000000, 25.39999999999999858 ) ) ;
#44 = CARTESIAN_POINT ( 'NONE',  ( -1.614212418857619014, 0.000000000000000000, 25.39999999999999858 ) ) ;
#45 = DIRECTION ( 'NONE',  ( -1.000000000000000000, -0.000000000000000000, -0.000000000000000000 ) ) ;
#46 = PERSON_AND_ORGANIZATION ( #52, #107 ) ;
#47 = CALENDAR_DATE ( 2020, 24, 12 ) ;
#48 = CC_DESIGN_PERSON_AND_ORGANIZATION_ASSIGNMENT ( #158, #121, ( #159 ) ) ;
#49 = PERSON_AND_ORGANIZATION_ROLE ( 'creator' ) ;
#50 = CALENDAR_DATE ( 2020, 24, 12 ) ;
#51 = APPROVAL_STATUS ( 'not_yet_approved' ) ;
#52 = PERSON ( 'UNSPECIFIED', 'UNSPECIFIED', 'UNSPECIFIED', ('UNSPECIFIED'), ('UNSPECIFIED'), ('UNSPECIFIED') ) ;
#53 = DIRECTION ( 'NONE',  ( -1.000000000000000000, -0.000000000000000000, -0.000000000000000000 ) ) ;
#54 = ORIENTED_EDGE ( 'NONE', *, *, #109, .F. ) ;
#55 = ORIENTED_EDGE ( 'NONE', *, *, #152, .F. ) ;
#56 = VECTOR ( 'NONE', #20, 1000.000000000000000 ) ;
#57 = FACE_OUTER_BOUND ( 'NONE', #141, .T. ) ;
#58 = APPROVAL_PERSON_ORGANIZATION ( #76, #123, #134 ) ;
#59 = LINE ( 'NONE', #44, #128 ) ;
#60 = CC_DESIGN_PERSON_AND_ORGANIZATION_ASSIGNMENT ( #151, #75, ( #65 ) ) ;
#61 = APPLICATION_PROTOCOL_DEFINITION ( 'international standard', 'config_control_design', 1994, #16 ) ;
#62 = DATE_AND_TIME ( #173, #74 ) ;
#63 = PERSON_AND_ORGANIZATION ( #52, #107 ) ;
#64 = VERTEX_POINT ( 'NONE', #110 ) ;
#65 = PRODUCT ( 'QB-CTZQWP-38.1-894-M', 'QB-CTZQWP-38.1-894-M', '', ( #72 ) ) ;
#66 = ORIENTED_EDGE ( 'NONE', *, *, #136, .T. ) ;
#67 = PRODUCT_DEFINITION ( 'UNKNOWN', '', #41, #133 ) ;
#68 = EDGE_LOOP ( 'NONE', ( #39, #163, #92, #54 ) ) ;
#69 = EDGE_CURVE ( 'NONE', #64, #154, #31, .T. ) ;
#70 =( LENGTH_UNIT ( ) NAMED_UNIT ( * ) SI_UNIT ( .MILLI., .METRE. ) );
#71 = ADVANCED_FACE ( 'NONE', ( #142 ), #15, .T. ) ;
#72 = MECHANICAL_CONTEXT ( 'NONE', #143, 'mechanical' ) ;
#73 = CIRCLE ( 'NONE', #13, 25.39999999999999858 ) ;
#74 = LOCAL_TIME ( 9, 52, 27.00000000000000000, #11 ) ;
#75 = PERSON_AND_ORGANIZATION_ROLE ( 'design_owner' ) ;
#76 = PERSON_AND_ORGANIZATION ( #52, #107 ) ;
#77 = PERSON_AND_ORGANIZATION_ROLE ( 'design_supplier' ) ;
#78 = UNCERTAINTY_MEASURE_WITH_UNIT (LENGTH_MEASURE( 1.000000000000000082E-05 ), #70, 'distance_accuracy_value', 'NONE');
#79 = EDGE_LOOP ( 'NONE', ( #55, #112 ) ) ;
#80 = AXIS2_PLACEMENT_3D ( 'NONE', #21, #119, #172 ) ;
#81 = DIRECTION ( 'NONE',  ( 0.000000000000000000, 0.000000000000000000, 1.000000000000000000 ) ) ;
#82 = CARTESIAN_POINT ( 'NONE',  ( -3.000000000000000000, 0.000000000000000000, 0.000000000000000000 ) ) ;
#83 = AXIS2_PLACEMENT_3D ( 'NONE', #94, #6, #42 ) ;
#84 = VERTEX_POINT ( 'NONE', #144 ) ;
#85 = CARTESIAN_POINT ( 'NONE',  ( -1.614212418857619014, 0.000000000000000000, 0.000000000000000000 ) ) ;
#86 = CYLINDRICAL_SURFACE ( 'NONE', #139, 25.39999999999999858 ) ;
#87 = DIRECTION ( 'NONE',  ( 0.000000000000000000, 0.000000000000000000, 1.000000000000000000 ) ) ;
#88 = LOCAL_TIME ( 9, 52, 27.00000000000000000, #137 ) ;
#89 = APPLICATION_PROTOCOL_DEFINITION ( 'international standard', 'config_control_design', 1994, #143 ) ;
#90 = APPROVAL_DATE_TIME ( #62, #5 ) ;
#91 = ADVANCED_BREP_SHAPE_REPRESENTATION ( 'QB-CTZQWP-38.1-894-M', ( #140, #80 ), #19 ) ;
#92 = ORIENTED_EDGE ( 'NONE', *, *, #136, .F. ) ;
#93 = CC_DESIGN_APPROVAL ( #174, ( #159 ) ) ;
#94 = CARTESIAN_POINT ( 'NONE',  ( 3.000000000000001332, 19.05000000000000071, 0.000000000000000000 ) ) ;
#95 = LINE ( 'NONE', #96, #56 ) ;
#96 = CARTESIAN_POINT ( 'NONE',  ( -1.614212418857619014, 3.110602869834276865E-15, -25.39999999999999858 ) ) ;
#97 = ADVANCED_FACE ( 'NONE', ( #147 ), #130, .F. ) ;
#98 = CC_DESIGN_DATE_AND_TIME_ASSIGNMENT ( #153, #23, ( #67 ) ) ;
#99 = CARTESIAN_POINT ( 'NONE',  ( -3.000000000000001332, 19.05000000000000071, 0.000000000000000000 ) ) ;
#100 = PERSON_AND_ORGANIZATION ( #52, #107 ) ;
#101 = EDGE_CURVE ( 'NONE', #127, #84, #7, .T. ) ;
#102 = COORDINATED_UNIVERSAL_TIME_OFFSET ( 8, 0, .AHEAD. ) ;
#103 = APPROVAL_STATUS ( 'not_yet_approved' ) ;
#104 = COORDINATED_UNIVERSAL_TIME_OFFSET ( 8, 0, .AHEAD. ) ;
#105 = CALENDAR_DATE ( 2020, 24, 12 ) ;
#106 = AXIS2_PLACEMENT_3D ( 'NONE', #171, #170, #149 ) ;
#107 = ORGANIZATION ( 'UNSPECIFIED', 'UNSPECIFIED', '' ) ;
#108 = ORIENTED_EDGE ( 'NONE', *, *, #69, .T. ) ;
#109 = EDGE_CURVE ( 'NONE', #84, #154, #59, .T. ) ;
#110 = CARTESIAN_POINT ( 'NONE',  ( -3.000000000000000000, 3.110602869834276865E-15, -25.39999999999999858 ) ) ;
#111 = DIRECTION ( 'NONE',  ( 0.000000000000000000, 0.000000000000000000, 1.000000000000000000 ) ) ;
#112 = ORIENTED_EDGE ( 'NONE', *, *, #101, .F. ) ;
#113 = AXIS2_PLACEMENT_3D ( 'NONE', #118, #45, #148 ) ;
#114 = APPROVAL_PERSON_ORGANIZATION ( #10, #5, #161 ) ;
#115 = CARTESIAN_POINT ( 'NONE',  ( 3.000000000000000000, 3.110602869834276865E-15, -25.39999999999999858 ) ) ;
#116 = ADVANCED_FACE ( 'NONE', ( #4 ), #86, .T. ) ;
#117 = CLOSED_SHELL ( 'NONE', ( #116, #97, #71, #138 ) ) ;
#118 = CARTESIAN_POINT ( 'NONE',  ( 3.000000000000000000, 0.000000000000000000, 0.000000000000000000 ) ) ;
#119 = DIRECTION ( 'NONE',  ( 0.000000000000000000, 0.000000000000000000, 1.000000000000000000 ) ) ;
#120 = DATE_AND_TIME ( #50, #25 ) ;
#121 = PERSON_AND_ORGANIZATION_ROLE ( 'classification_officer' ) ;
#122 = APPROVAL_DATE_TIME ( #162, #174 ) ;
#123 = APPROVAL ( #9, 'UNSPECIFIED' ) ;
#124 = EDGE_LOOP ( 'NONE', ( #14, #28, #27, #2 ) ) ;
#125 = CC_DESIGN_DATE_AND_TIME_ASSIGNMENT ( #120, #22, ( #159 ) ) ;
#126 = CARTESIAN_POINT ( 'NONE',  ( -1.614212418857619014, 0.000000000000000000, 0.000000000000000000 ) ) ;
#127 = VERTEX_POINT ( 'NONE', #115 ) ;
#128 = VECTOR ( 'NONE', #8, 1000.000000000000000 ) ;
#129 = LOCAL_TIME ( 9, 52, 27.00000000000000000, #104 ) ;
#130 = PLANE ( 'NONE',  #83 ) ;
#131 = AXIS2_PLACEMENT_3D ( 'NONE', #99, #169, #30 ) ;
#132 = PERSON_AND_ORGANIZATION ( #52, #107 ) ;
#133 = DESIGN_CONTEXT ( 'detailed design', #16, 'design' ) ;
#134 = APPROVAL_ROLE ( '' ) ;
#135 = SECURITY_CLASSIFICATION_LEVEL ( 'unclassified' ) ;
#136 = EDGE_CURVE ( 'NONE', #154, #64, #73, .T. ) ;
#137 = COORDINATED_UNIVERSAL_TIME_OFFSET ( 8, 0, .AHEAD. ) ;
#138 = ADVANCED_FACE ( 'NONE', ( #57 ), #156, .F. ) ;
#139 = AXIS2_PLACEMENT_3D ( 'NONE', #85, #155, #33 ) ;
#140 = MANIFOLD_SOLID_BREP ( 'Ðý×', #117 ) ;
#141 = EDGE_LOOP ( 'NONE', ( #66, #108 ) ) ;
#142 = FACE_OUTER_BOUND ( 'NONE', #124, .T. ) ;
#143 = APPLICATION_CONTEXT ( 'configuration controlled 3d designs of mechanical parts and assemblies' ) ;
#144 = CARTESIAN_POINT ( 'NONE',  ( 3.000000000000000000, 0.000000000000000000, 25.39999999999999858 ) ) ;
#145 = AXIS2_PLACEMENT_3D ( 'NONE', #82, #164, #81 ) ;
#146 = CARTESIAN_POINT ( 'NONE',  ( -3.000000000000000000, 0.000000000000000000, 0.000000000000000000 ) ) ;
#147 = FACE_OUTER_BOUND ( 'NONE', #79, .T. ) ;
#148 = DIRECTION ( 'NONE',  ( 0.000000000000000000, 0.000000000000000000, 1.000000000000000000 ) ) ;
#149 = DIRECTION ( 'NONE',  ( 0.000000000000000000, 0.000000000000000000, 1.000000000000000000 ) ) ;
#150 = CC_DESIGN_APPROVAL ( #5, ( #67 ) ) ;
#151 = PERSON_AND_ORGANIZATION ( #52, #107 ) ;
#152 = EDGE_CURVE ( 'NONE', #84, #127, #167, .T. ) ;
#153 = DATE_AND_TIME ( #105, #3 ) ;
#154 = VERTEX_POINT ( 'NONE', #43 ) ;
#155 = DIRECTION ( 'NONE',  ( -1.000000000000000000, -0.000000000000000000, -0.000000000000000000 ) ) ;
#156 = PLANE ( 'NONE',  #131 ) ;
#157 = CC_DESIGN_PERSON_AND_ORGANIZATION_ASSIGNMENT ( #63, #77, ( #41 ) ) ;
#158 = PERSON_AND_ORGANIZATION ( #52, #107 ) ;
#159 = SECURITY_CLASSIFICATION ( '', '', #135 ) ;
#160 = PERSON_AND_ORGANIZATION_ROLE ( 'creator' ) ;
#161 = APPROVAL_ROLE ( '' ) ;
#162 = DATE_AND_TIME ( #37, #129 ) ;
#163 = ORIENTED_EDGE ( 'NONE', *, *, #166, .T. ) ;
#164 = DIRECTION ( 'NONE',  ( -1.000000000000000000, -0.000000000000000000, -0.000000000000000000 ) ) ;
#165 = PRODUCT_DEFINITION_SHAPE ( 'NONE', 'NONE',  #67 ) ;
#166 = EDGE_CURVE ( 'NONE', #127, #64, #95, .T. ) ;
#167 = CIRCLE ( 'NONE', #113, 25.39999999999999858 ) ;
#168 =( NAMED_UNIT ( * ) SI_UNIT ( $, .STERADIAN. ) SOLID_ANGLE_UNIT ( ) );
#169 = DIRECTION ( 'NONE',  ( 1.000000000000000000, 0.000000000000000000, 0.000000000000000000 ) ) ;
#170 = DIRECTION ( 'NONE',  ( -1.000000000000000000, -0.000000000000000000, -0.000000000000000000 ) ) ;
#171 = CARTESIAN_POINT ( 'NONE',  ( 3.000000000000000000, 0.000000000000000000, 0.000000000000000000 ) ) ;
#172 = DIRECTION ( 'NONE',  ( 1.000000000000000000, 0.000000000000000000, 0.000000000000000000 ) ) ;
#173 = CALENDAR_DATE ( 2020, 24, 12 ) ;
#174 = APPROVAL ( #103, 'UNSPECIFIED' ) ;
#175 = APPROVAL_DATE_TIME ( #26, #123 ) ;
ENDSEC;
END-ISO-10303-21;
